ISO-10303-21;
HEADER;
FILE_DESCRIPTION (( 'STEP AP203' ),
    '1' );
FILE_NAME ('pltr.STEP',
    '2007-10-22T17:35:14',
    ( 'Vincent Francois' ),
    ( 'Genie Mécanique UQTR' ),
    'SwSTEP 2.0',
    'SolidWorks 2007',
    '' );
FILE_SCHEMA (( 'CONFIG_CONTROL_DESIGN' ));
ENDSEC;

DATA;
#1 = ORIENTED_EDGE ( 'NONE', *, *, #3, .T. ) ;
#2 = VERTEX_POINT ( 'NONE', #122 ) ;
#3 = EDGE_CURVE ( 'NONE', #2, #30, #121, .T. ) ;
#4 = EDGE_LOOP ( 'NONE', ( #5, #7, #1, #23 ) ) ;
#5 = ORIENTED_EDGE ( 'NONE', *, *, #10, .T. ) ;
#6 = ADVANCED_FACE ( 'NONE', ( #117, #116 ), #115, .T. ) ;
#7 = ORIENTED_EDGE ( 'NONE', *, *, #9, .T. ) ;
#8 = VERTEX_POINT ( 'NONE', #110 ) ;
#9 = EDGE_CURVE ( 'NONE', #11, #2, #109, .T. ) ;
#10 = EDGE_CURVE ( 'NONE', #8, #11, #105, .T. ) ;
#11 = VERTEX_POINT ( 'NONE', #101 ) ;
#12 = ORIENTED_EDGE ( 'NONE', *, *, #16, .F. ) ;
#13 = ORIENTED_EDGE ( 'NONE', *, *, #22, .F. ) ;
#14 = ORIENTED_EDGE ( 'NONE', *, *, #19, .F. ) ;
#15 = VERTEX_POINT ( 'NONE', #100 ) ;
#16 = EDGE_CURVE ( 'NONE', #75, #84, #99, .T. ) ;
#17 = EDGE_LOOP ( 'NONE', ( #20, #14, #44, #42 ) ) ;
#18 = VERTEX_POINT ( 'NONE', #95 ) ;
#19 = EDGE_CURVE ( 'NONE', #46, #18, #94, .T. ) ;
#20 = ORIENTED_EDGE ( 'NONE', *, *, #21, .F. ) ;
#21 = EDGE_CURVE ( 'NONE', #18, #15, #90, .T. ) ;
#22 = EDGE_CURVE ( 'NONE', #84, #83, #136, .T. ) ;
#23 = ORIENTED_EDGE ( 'NONE', *, *, #31, .T. ) ;
#24 = ADVANCED_FACE ( 'NONE', ( #131, #130 ), #128, .F. ) ;
#25 = ORIENTED_EDGE ( 'NONE', *, *, #56, .F. ) ;
#26 = ORIENTED_EDGE ( 'NONE', *, *, #74, .F. ) ;
#27 = EDGE_CURVE ( 'NONE', #76, #75, #170, .T. ) ;
#28 = ORIENTED_EDGE ( 'NONE', *, *, #27, .F. ) ;
#29 = EDGE_LOOP ( 'NONE', ( #26, #28 ) ) ;
#30 = VERTEX_POINT ( 'NONE', #166 ) ;
#31 = EDGE_CURVE ( 'NONE', #30, #8, #165, .T. ) ;
#32 = ORIENTED_EDGE ( 'NONE', *, *, #21, .T. ) ;
#33 = EDGE_LOOP ( 'NONE', ( #32, #25, #61, #54 ) ) ;
#34 = EDGE_LOOP ( 'NONE', ( #35, #36 ) ) ;
#35 = ORIENTED_EDGE ( 'NONE', *, *, #22, .T. ) ;
#36 = ORIENTED_EDGE ( 'NONE', *, *, #37, .T. ) ;
#37 = EDGE_CURVE ( 'NONE', #83, #84, #161, .T. ) ;
#38 = ADVANCED_FACE ( 'NONE', ( #156 ), #155, .F. ) ;
#39 = EDGE_LOOP ( 'NONE', ( #41, #50, #49, #48 ) ) ;
#40 = VERTEX_POINT ( 'NONE', #150 ) ;
#41 = ORIENTED_EDGE ( 'NONE', *, *, #43, .T. ) ;
#42 = ORIENTED_EDGE ( 'NONE', *, *, #43, .F. ) ;
#43 = EDGE_CURVE ( 'NONE', #15, #40, #149, .T. ) ;
#44 = ORIENTED_EDGE ( 'NONE', *, *, #45, .F. ) ;
#45 = EDGE_CURVE ( 'NONE', #40, #46, #145, .T. ) ;
#46 = VERTEX_POINT ( 'NONE', #141 ) ;
#47 = EDGE_LOOP ( 'NONE', ( #87, #65, #64, #67 ) ) ;
#48 = ORIENTED_EDGE ( 'NONE', *, *, #56, .T. ) ;
#49 = ORIENTED_EDGE ( 'NONE', *, *, #9, .F. ) ;
#50 = ORIENTED_EDGE ( 'NONE', *, *, #51, .F. ) ;
#51 = EDGE_CURVE ( 'NONE', #2, #40, #140, .T. ) ;
#52 = ADVANCED_FACE ( 'NONE', ( #201 ), #200, .F. ) ;
#53 = ADVANCED_FACE ( 'NONE', ( #195 ), #194, .F. ) ;
#54 = ORIENTED_EDGE ( 'NONE', *, *, #55, .T. ) ;
#55 = EDGE_CURVE ( 'NONE', #8, #18, #189, .T. ) ;
#56 = EDGE_CURVE ( 'NONE', #11, #15, #185, .T. ) ;
#57 = ADVANCED_FACE ( 'NONE', ( #181 ), #180, .F. ) ;
#58 = ORIENTED_EDGE ( 'NONE', *, *, #19, .T. ) ;
#59 = ORIENTED_EDGE ( 'NONE', *, *, #55, .F. ) ;
#60 = EDGE_LOOP ( 'NONE', ( #58, #59, #62, #63 ) ) ;
#61 = ORIENTED_EDGE ( 'NONE', *, *, #10, .F. ) ;
#62 = ORIENTED_EDGE ( 'NONE', *, *, #31, .F. ) ;
#63 = ORIENTED_EDGE ( 'NONE', *, *, #66, .T. ) ;
#64 = ORIENTED_EDGE ( 'NONE', *, *, #3, .F. ) ;
#65 = ORIENTED_EDGE ( 'NONE', *, *, #66, .F. ) ;
#66 = EDGE_CURVE ( 'NONE', #30, #46, #175, .T. ) ;
#67 = ORIENTED_EDGE ( 'NONE', *, *, #51, .T. ) ;
#68 = EDGE_LOOP ( 'NONE', ( #81, #69, #85, #86 ) ) ;
#69 = ORIENTED_EDGE ( 'NONE', *, *, #27, .T. ) ;
#70 = MANIFOLD_SOLID_BREP ( 'NONE', #80 ) ;
#71 = ADVANCED_FACE ( 'NONE', ( #171 ), #229, .F. ) ;
#72 = EDGE_LOOP ( 'NONE', ( #73, #77, #13, #12 ) ) ;
#73 = ORIENTED_EDGE ( 'NONE', *, *, #74, .T. ) ;
#74 = EDGE_CURVE ( 'NONE', #75, #76, #224, .T. ) ;
#75 = VERTEX_POINT ( 'NONE', #220 ) ;
#76 = VERTEX_POINT ( 'NONE', #219 ) ;
#77 = ORIENTED_EDGE ( 'NONE', *, *, #78, .T. ) ;
#78 = EDGE_CURVE ( 'NONE', #76, #83, #218, .T. ) ;
#79 = ADVANCED_FACE ( 'NONE', ( #214 ), #213, .F. ) ;
#80 = CLOSED_SHELL ( 'NONE', ( #71, #6, #24, #38, #53, #52, #57, #79 ) ) ;
#81 = ORIENTED_EDGE ( 'NONE', *, *, #78, .F. ) ;
#82 = PRODUCT_RELATED_PRODUCT_CATEGORY ( 'detail', '', ( #262 ) ) ;
#83 = VERTEX_POINT ( 'NONE', #208 ) ;
#84 = VERTEX_POINT ( 'NONE', #207 ) ;
#85 = ORIENTED_EDGE ( 'NONE', *, *, #16, .T. ) ;
#86 = ORIENTED_EDGE ( 'NONE', *, *, #37, .F. ) ;
#87 = ORIENTED_EDGE ( 'NONE', *, *, #45, .T. ) ;
#88 = VECTOR ( 'NONE', #137, 1.000000000000000000 ) ;
#89 = CARTESIAN_POINT ( 'NONE',  ( -0.05000000000000001700, 0.03999999999999999400, 0.0000000000000000000 ) ) ;
#90 = LINE ( 'NONE', #89, #88 ) ;
#91 = DIRECTION ( 'NONE',  ( -1.000000000000000000, 0.0000000000000000000, 0.0000000000000000000 ) ) ;
#92 = VECTOR ( 'NONE', #91, 1.000000000000000000 ) ;
#93 = CARTESIAN_POINT ( 'NONE',  ( -0.05000000000000001700, 0.03999999999999999400, 0.0000000000000000000 ) ) ;
#94 = LINE ( 'NONE', #93, #92 ) ;
#95 = CARTESIAN_POINT ( 'NONE',  ( -0.05000000000000001700, 0.03999999999999999400, 0.0000000000000000000 ) ) ;
#96 = DIRECTION ( 'NONE',  ( 0.0000000000000000000, 0.0000000000000000000, -1.000000000000000000 ) ) ;
#97 = VECTOR ( 'NONE', #96, 1.000000000000000000 ) ;
#98 = CARTESIAN_POINT ( 'NONE',  ( -0.01499999999999999900, 0.0000000000000000000, 0.05999999999999999800 ) ) ;
#99 = LINE ( 'NONE', #98, #97 ) ;
#100 = CARTESIAN_POINT ( 'NONE',  ( -0.05000000000000001700, -0.04000000000000000800, 0.0000000000000000000 ) ) ;
#101 = CARTESIAN_POINT ( 'NONE',  ( -0.05000000000000001700, -0.04000000000000000800, 0.05999999999999999800 ) ) ;
#102 = DIRECTION ( 'NONE',  ( 0.0000000000000000000, -1.000000000000000000, 0.0000000000000000000 ) ) ;
#103 = VECTOR ( 'NONE', #102, 1.000000000000000000 ) ;
#104 = CARTESIAN_POINT ( 'NONE',  ( -0.05000000000000001700, 0.03999999999999999400, 0.05999999999999999800 ) ) ;
#105 = LINE ( 'NONE', #104, #103 ) ;
#106 = DIRECTION ( 'NONE',  ( 1.000000000000000000, 0.0000000000000000000, 0.0000000000000000000 ) ) ;
#107 = VECTOR ( 'NONE', #106, 1.000000000000000000 ) ;
#108 = CARTESIAN_POINT ( 'NONE',  ( -0.05000000000000001700, -0.04000000000000000800, 0.05999999999999999800 ) ) ;
#109 = LINE ( 'NONE', #108, #107 ) ;
#110 = CARTESIAN_POINT ( 'NONE',  ( -0.05000000000000001700, 0.03999999999999999400, 0.05999999999999999800 ) ) ;
#111 = DIRECTION ( 'NONE',  ( 1.000000000000000000, 0.0000000000000000000, 0.0000000000000000000 ) ) ;
#112 = DIRECTION ( 'NONE',  ( 0.0000000000000000000, 0.0000000000000000000, 1.000000000000000000 ) ) ;
#113 = CARTESIAN_POINT ( 'NONE',  ( -0.05000000000000001700, -0.04000000000000000800, 0.05999999999999999800 ) ) ;
#114 = AXIS2_PLACEMENT_3D ( 'NONE', #113, #112, #111 ) ;
#115 = PLANE ( 'NONE',  #114 ) ;
#116 = FACE_BOUND ( 'NONE', #29, .T. ) ;
#117 = FACE_OUTER_BOUND ( 'NONE', #4, .T. ) ;
#118 = DIRECTION ( 'NONE',  ( -2.602085213965210600E-016, 1.000000000000000000, 0.0000000000000000000 ) ) ;
#119 = VECTOR ( 'NONE', #118, 1.000000000000000000 ) ;
#120 = CARTESIAN_POINT ( 'NONE',  ( 0.04999999999999998900, 0.03999999999999999400, 0.05999999999999999800 ) ) ;
#121 = LINE ( 'NONE', #120, #119 ) ;
#122 = CARTESIAN_POINT ( 'NONE',  ( 0.05000000000000001000, -0.04000000000000000800, 0.05999999999999999800 ) ) ;
#123 = DIRECTION ( 'NONE',  ( 0.0000000000000000000, 0.0000000000000000000, 1.000000000000000000 ) ) ;
#124 = DIRECTION ( 'NONE',  ( 1.000000000000000000, 0.0000000000000000000, 0.0000000000000000000 ) ) ;
#125 = DIRECTION ( 'NONE',  ( 0.0000000000000000000, 0.0000000000000000000, 1.000000000000000000 ) ) ;
#126 = CARTESIAN_POINT ( 'NONE',  ( -0.05000000000000001700, -0.04000000000000000800, 0.0000000000000000000 ) ) ;
#127 = AXIS2_PLACEMENT_3D ( 'NONE', #126, #125, #124 ) ;
#128 = PLANE ( 'NONE',  #127 ) ;
#129 = CARTESIAN_POINT ( 'NONE',  ( 0.0000000000000000000, 0.0000000000000000000, 0.05999999999999999800 ) ) ;
#130 = FACE_BOUND ( 'NONE', #34, .T. ) ;
#131 = FACE_OUTER_BOUND ( 'NONE', #17, .T. ) ;
#132 = DIRECTION ( 'NONE',  ( 1.000000000000000000, 0.0000000000000000000, 0.0000000000000000000 ) ) ;
#133 = DIRECTION ( 'NONE',  ( 0.0000000000000000000, 0.0000000000000000000, 1.000000000000000000 ) ) ;
#134 = CARTESIAN_POINT ( 'NONE',  ( 0.0000000000000000000, 0.0000000000000000000, 0.0000000000000000000 ) ) ;
#135 = AXIS2_PLACEMENT_3D ( 'NONE', #134, #133, #132 ) ;
#136 = CIRCLE ( 'NONE', #135, 0.01499999999999999900 ) ;
#137 = DIRECTION ( 'NONE',  ( 0.0000000000000000000, -1.000000000000000000, 0.0000000000000000000 ) ) ;
#138 = VECTOR ( 'NONE', #202, 1.000000000000000000 ) ;
#139 = CARTESIAN_POINT ( 'NONE',  ( 0.05000000000000001000, -0.04000000000000000800, 0.05999999999999999800 ) ) ;
#140 = LINE ( 'NONE', #139, #138 ) ;
#141 = CARTESIAN_POINT ( 'NONE',  ( 0.04999999999999998900, 0.03999999999999999400, 0.0000000000000000000 ) ) ;
#142 = DIRECTION ( 'NONE',  ( -2.602085213965210600E-016, 1.000000000000000000, 0.0000000000000000000 ) ) ;
#143 = VECTOR ( 'NONE', #142, 1.000000000000000000 ) ;
#144 = CARTESIAN_POINT ( 'NONE',  ( 0.04999999999999998900, 0.03999999999999999400, 0.0000000000000000000 ) ) ;
#145 = LINE ( 'NONE', #144, #143 ) ;
#146 = DIRECTION ( 'NONE',  ( 1.000000000000000000, 0.0000000000000000000, 0.0000000000000000000 ) ) ;
#147 = VECTOR ( 'NONE', #146, 1.000000000000000000 ) ;
#148 = CARTESIAN_POINT ( 'NONE',  ( -0.05000000000000001700, -0.04000000000000000800, 0.0000000000000000000 ) ) ;
#149 = LINE ( 'NONE', #148, #147 ) ;
#150 = CARTESIAN_POINT ( 'NONE',  ( 0.05000000000000001000, -0.04000000000000000800, 0.0000000000000000000 ) ) ;
#151 = DIRECTION ( 'NONE',  ( 0.0000000000000000000, 0.0000000000000000000, -1.000000000000000000 ) ) ;
#152 = DIRECTION ( 'NONE',  ( 1.000000000000000000, 0.0000000000000000000, 0.0000000000000000000 ) ) ;
#153 = CARTESIAN_POINT ( 'NONE',  ( -0.05000000000000001700, 0.03999999999999999400, 0.05999999999999999800 ) ) ;
#154 = AXIS2_PLACEMENT_3D ( 'NONE', #153, #152, #151 ) ;
#155 = PLANE ( 'NONE',  #154 ) ;
#156 = FACE_OUTER_BOUND ( 'NONE', #33, .T. ) ;
#157 = DIRECTION ( 'NONE',  ( 1.000000000000000000, 0.0000000000000000000, 0.0000000000000000000 ) ) ;
#158 = DIRECTION ( 'NONE',  ( 0.0000000000000000000, 0.0000000000000000000, 1.000000000000000000 ) ) ;
#159 = CARTESIAN_POINT ( 'NONE',  ( 0.0000000000000000000, 0.0000000000000000000, 0.0000000000000000000 ) ) ;
#160 = AXIS2_PLACEMENT_3D ( 'NONE', #159, #158, #157 ) ;
#161 = CIRCLE ( 'NONE', #160, 0.01499999999999999900 ) ;
#162 = DIRECTION ( 'NONE',  ( -1.000000000000000000, 0.0000000000000000000, 0.0000000000000000000 ) ) ;
#163 = VECTOR ( 'NONE', #162, 1.000000000000000000 ) ;
#164 = CARTESIAN_POINT ( 'NONE',  ( -0.05000000000000001700, 0.03999999999999999400, 0.05999999999999999800 ) ) ;
#165 = LINE ( 'NONE', #164, #163 ) ;
#166 = CARTESIAN_POINT ( 'NONE',  ( 0.04999999999999998900, 0.03999999999999999400, 0.05999999999999999800 ) ) ;
#167 = DIRECTION ( 'NONE',  ( 1.000000000000000000, 0.0000000000000000000, 0.0000000000000000000 ) ) ;
#168 = DIRECTION ( 'NONE',  ( 0.0000000000000000000, 0.0000000000000000000, 1.000000000000000000 ) ) ;
#169 = AXIS2_PLACEMENT_3D ( 'NONE', #129, #168, #167 ) ;
#170 = CIRCLE ( 'NONE', #169, 0.01499999999999999900 ) ;
#171 = FACE_OUTER_BOUND ( 'NONE', #72, .T. ) ;
#172 = DIRECTION ( 'NONE',  ( 0.0000000000000000000, 0.0000000000000000000, -1.000000000000000000 ) ) ;
#173 = VECTOR ( 'NONE', #172, 1.000000000000000000 ) ;
#174 = CARTESIAN_POINT ( 'NONE',  ( 0.04999999999999998900, 0.03999999999999999400, 0.05999999999999999800 ) ) ;
#175 = LINE ( 'NONE', #174, #173 ) ;
#176 = DIRECTION ( 'NONE',  ( 0.0000000000000000000, 0.0000000000000000000, -1.000000000000000000 ) ) ;
#177 = DIRECTION ( 'NONE',  ( 0.0000000000000000000, -1.000000000000000000, 0.0000000000000000000 ) ) ;
#178 = CARTESIAN_POINT ( 'NONE',  ( -0.05000000000000001700, 0.03999999999999999400, 0.05999999999999999800 ) ) ;
#179 = AXIS2_PLACEMENT_3D ( 'NONE', #178, #177, #176 ) ;
#180 = PLANE ( 'NONE',  #179 ) ;
#181 = FACE_OUTER_BOUND ( 'NONE', #60, .T. ) ;
#182 = DIRECTION ( 'NONE',  ( 0.0000000000000000000, 0.0000000000000000000, -1.000000000000000000 ) ) ;
#183 = VECTOR ( 'NONE', #182, 1.000000000000000000 ) ;
#184 = CARTESIAN_POINT ( 'NONE',  ( -0.05000000000000001700, -0.04000000000000000800, 0.05999999999999999800 ) ) ;
#185 = LINE ( 'NONE', #184, #183 ) ;
#186 = DIRECTION ( 'NONE',  ( 0.0000000000000000000, 0.0000000000000000000, -1.000000000000000000 ) ) ;
#187 = VECTOR ( 'NONE', #186, 1.000000000000000000 ) ;
#188 = CARTESIAN_POINT ( 'NONE',  ( -0.05000000000000001700, 0.03999999999999999400, 0.05999999999999999800 ) ) ;
#189 = LINE ( 'NONE', #188, #187 ) ;
#190 = DIRECTION ( 'NONE',  ( 0.0000000000000000000, 0.0000000000000000000, 1.000000000000000000 ) ) ;
#191 = DIRECTION ( 'NONE',  ( 0.0000000000000000000, 1.000000000000000000, 0.0000000000000000000 ) ) ;
#192 = CARTESIAN_POINT ( 'NONE',  ( -0.05000000000000001700, -0.04000000000000000800, 0.05999999999999999800 ) ) ;
#193 = AXIS2_PLACEMENT_3D ( 'NONE', #192, #191, #190 ) ;
#194 = PLANE ( 'NONE',  #193 ) ;
#195 = FACE_OUTER_BOUND ( 'NONE', #39, .T. ) ;
#196 = DIRECTION ( 'NONE',  ( 2.602085213965210600E-016, -1.000000000000000000, 0.0000000000000000000 ) ) ;
#197 = DIRECTION ( 'NONE',  ( -1.000000000000000000, -2.602085213965210600E-016, 0.0000000000000000000 ) ) ;
#198 = CARTESIAN_POINT ( 'NONE',  ( 0.04999999999999998900, 0.03999999999999999400, 0.05999999999999999800 ) ) ;
#199 = AXIS2_PLACEMENT_3D ( 'NONE', #198, #197, #196 ) ;
#200 = PLANE ( 'NONE',  #199 ) ;
#201 = FACE_OUTER_BOUND ( 'NONE', #47, .T. ) ;
#202 = DIRECTION ( 'NONE',  ( 0.0000000000000000000, 0.0000000000000000000, -1.000000000000000000 ) ) ;
#203 = UNCERTAINTY_MEASURE_WITH_UNIT (LENGTH_MEASURE( 1.000000000000000100E-005 ), #206, 'distance_accuracy_value', 'NONE');
#204 =( NAMED_UNIT ( * ) SI_UNIT ( $, .STERADIAN. ) SOLID_ANGLE_UNIT ( ) );
#205 =( NAMED_UNIT ( * ) PLANE_ANGLE_UNIT ( ) SI_UNIT ( $, .RADIAN. ) );
#206 =( LENGTH_UNIT ( ) NAMED_UNIT ( * ) SI_UNIT ( $, .METRE. ) );
#207 = CARTESIAN_POINT ( 'NONE',  ( -0.01499999999999999900, 0.0000000000000000000, 0.0000000000000000000 ) ) ;
#208 = CARTESIAN_POINT ( 'NONE',  ( 0.01499999999999999900, 1.836970198721029600E-018, 0.0000000000000000000 ) ) ;
#209 = DIRECTION ( 'NONE',  ( -1.000000000000000000, 0.0000000000000000000, 0.0000000000000000000 ) ) ;
#210 = DIRECTION ( 'NONE',  ( 0.0000000000000000000, 0.0000000000000000000, -1.000000000000000000 ) ) ;
#211 = CARTESIAN_POINT ( 'NONE',  ( 0.0000000000000000000, 0.0000000000000000000, 0.05999999999999999800 ) ) ;
#212 = AXIS2_PLACEMENT_3D ( 'NONE', #211, #210, #209 ) ;
#213 = CYLINDRICAL_SURFACE ( 'NONE', #212, 0.01499999999999999900 ) ;
#214 = FACE_OUTER_BOUND ( 'NONE', #68, .T. ) ;
#215 = DIRECTION ( 'NONE',  ( 0.0000000000000000000, 0.0000000000000000000, -1.000000000000000000 ) ) ;
#216 = VECTOR ( 'NONE', #215, 1.000000000000000000 ) ;
#217 = CARTESIAN_POINT ( 'NONE',  ( 0.01499999999999999900, 1.836970198721029600E-018, 0.05999999999999999800 ) ) ;
#218 = LINE ( 'NONE', #217, #216 ) ;
#219 = CARTESIAN_POINT ( 'NONE',  ( 0.01499999999999999900, 1.836970198721029600E-018, 0.05999999999999999800 ) ) ;
#220 = CARTESIAN_POINT ( 'NONE',  ( -0.01499999999999999900, 0.0000000000000000000, 0.05999999999999999800 ) ) ;
#221 = DIRECTION ( 'NONE',  ( 1.000000000000000000, 0.0000000000000000000, 0.0000000000000000000 ) ) ;
#222 = DIRECTION ( 'NONE',  ( 0.0000000000000000000, 0.0000000000000000000, 1.000000000000000000 ) ) ;
#223 = AXIS2_PLACEMENT_3D ( 'NONE', #230, #222, #221 ) ;
#224 = CIRCLE ( 'NONE', #223, 0.01499999999999999900 ) ;
#225 = DIRECTION ( 'NONE',  ( -1.000000000000000000, 0.0000000000000000000, 0.0000000000000000000 ) ) ;
#226 = DIRECTION ( 'NONE',  ( 0.0000000000000000000, 0.0000000000000000000, -1.000000000000000000 ) ) ;
#227 = CARTESIAN_POINT ( 'NONE',  ( 0.0000000000000000000, 0.0000000000000000000, 0.05999999999999999800 ) ) ;
#228 = AXIS2_PLACEMENT_3D ( 'NONE', #227, #226, #225 ) ;
#229 = CYLINDRICAL_SURFACE ( 'NONE', #228, 0.01499999999999999900 ) ;
#230 = CARTESIAN_POINT ( 'NONE',  ( 0.0000000000000000000, 0.0000000000000000000, 0.05999999999999999800 ) ) ;
#231 = DIRECTION ( 'NONE',  ( 1.000000000000000000, 0.0000000000000000000, 0.0000000000000000000 ) ) ;
#232 = CARTESIAN_POINT ( 'NONE',  ( 0.0000000000000000000, 0.0000000000000000000, 0.0000000000000000000 ) ) ;
#233 = AXIS2_PLACEMENT_3D ( 'NONE', #232, #123, #231 ) ;
#234 = ADVANCED_BREP_SHAPE_REPRESENTATION ( 'pltr', ( #70, #233 ), #235 ) ;
#235 =( GEOMETRIC_REPRESENTATION_CONTEXT ( 3 ) GLOBAL_UNCERTAINTY_ASSIGNED_CONTEXT ( ( #203 ) ) GLOBAL_UNIT_ASSIGNED_CONTEXT ( ( #206, #205, #204 ) ) REPRESENTATION_CONTEXT ( 'NONE', 'WORKASPACE' ) );
#236 = CALENDAR_DATE ( 2007, 22, 10 ) ;
#237 = LOCAL_TIME ( 13, 35, 14.00000000000000000, #238 ) ;
#238 = COORDINATED_UNIVERSAL_TIME_OFFSET ( 5, 0, .BEHIND. ) ;
#239 = CC_DESIGN_PERSON_AND_ORGANIZATION_ASSIGNMENT ( #241, #240, ( #253 ) ) ;
#240 = PERSON_AND_ORGANIZATION_ROLE ( 'creator' ) ;
#241 = PERSON_AND_ORGANIZATION ( #261, #260 ) ;
#242 = CC_DESIGN_APPROVAL ( #250, ( #253 ) ) ;
#243 = APPROVAL_DATE_TIME ( #244, #250 ) ;
#244 = DATE_AND_TIME ( #245, #246 ) ;
#245 = CALENDAR_DATE ( 2007, 22, 10 ) ;
#246 = LOCAL_TIME ( 13, 35, 14.00000000000000000, #247 ) ;
#247 = COORDINATED_UNIVERSAL_TIME_OFFSET ( 5, 0, .BEHIND. ) ;
#248 = APPROVAL_PERSON_ORGANIZATION ( #252, #250, #249 ) ;
#249 = APPROVAL_ROLE ( '' ) ;
#250 = APPROVAL ( #251, 'UNSPECIFIED' ) ;
#251 = APPROVAL_STATUS ( 'not_yet_approved' ) ;
#252 = PERSON_AND_ORGANIZATION ( #261, #260 ) ;
#253 = PRODUCT_DEFINITION ( 'UNKNOWN', '', #306, #254 ) ;
#254 = DESIGN_CONTEXT ( 'detailed design', #256, 'design' ) ;
#255 = APPLICATION_PROTOCOL_DEFINITION ( 'international standard', 'config_control_design', 1994, #256 ) ;
#256 = APPLICATION_CONTEXT ( 'configuration controlled 3d designs of mechanical parts and assemblies' ) ;
#257 = CC_DESIGN_PERSON_AND_ORGANIZATION_ASSIGNMENT ( #259, #258, ( #262 ) ) ;
#258 = PERSON_AND_ORGANIZATION_ROLE ( 'design_owner' ) ;
#259 = PERSON_AND_ORGANIZATION ( #261, #260 ) ;
#260 = ORGANIZATION ( 'UNSPECIFIED', 'UNSPECIFIED', '' ) ;
#261 = PERSON ( 'UNSPECIFIED', 'UNSPECIFIED', 'UNSPECIFIED', ('UNSPECIFIED'), ('UNSPECIFIED'), ('UNSPECIFIED') ) ;
#262 = PRODUCT ( 'pltr', 'pltr', '', ( #263 ) ) ;
#263 = MECHANICAL_CONTEXT ( 'NONE', #265, 'mechanical' ) ;
#264 = APPLICATION_PROTOCOL_DEFINITION ( 'international standard', 'config_control_design', 1994, #265 ) ;
#265 = APPLICATION_CONTEXT ( 'configuration controlled 3d designs of mechanical parts and assemblies' ) ;
#266 = CC_DESIGN_SECURITY_CLASSIFICATION ( #287, ( #306 ) ) ;
#267 = CC_DESIGN_APPROVAL ( #275, ( #287 ) ) ;
#268 = APPROVAL_DATE_TIME ( #269, #275 ) ;
#269 = DATE_AND_TIME ( #270, #271 ) ;
#270 = CALENDAR_DATE ( 2007, 22, 10 ) ;
#271 = LOCAL_TIME ( 13, 35, 14.00000000000000000, #272 ) ;
#272 = COORDINATED_UNIVERSAL_TIME_OFFSET ( 5, 0, .BEHIND. ) ;
#273 = APPROVAL_PERSON_ORGANIZATION ( #277, #275, #274 ) ;
#274 = APPROVAL_ROLE ( '' ) ;
#275 = APPROVAL ( #276, 'UNSPECIFIED' ) ;
#276 = APPROVAL_STATUS ( 'not_yet_approved' ) ;
#277 = PERSON_AND_ORGANIZATION ( #261, #260 ) ;
#278 = CC_DESIGN_DATE_AND_TIME_ASSIGNMENT ( #280, #279, ( #287 ) ) ;
#279 = DATE_TIME_ROLE ( 'classification_date' ) ;
#280 = DATE_AND_TIME ( #281, #282 ) ;
#281 = CALENDAR_DATE ( 2007, 22, 10 ) ;
#282 = LOCAL_TIME ( 13, 35, 14.00000000000000000, #283 ) ;
#283 = COORDINATED_UNIVERSAL_TIME_OFFSET ( 5, 0, .BEHIND. ) ;
#284 = CC_DESIGN_PERSON_AND_ORGANIZATION_ASSIGNMENT ( #286, #285, ( #287 ) ) ;
#285 = PERSON_AND_ORGANIZATION_ROLE ( 'classification_officer' ) ;
#286 = PERSON_AND_ORGANIZATION ( #261, #260 ) ;
#287 = SECURITY_CLASSIFICATION ( '', '', #288 ) ;
#288 = SECURITY_CLASSIFICATION_LEVEL ( 'unclassified' ) ;
#289 = CC_DESIGN_PERSON_AND_ORGANIZATION_ASSIGNMENT ( #291, #290, ( #306 ) ) ;
#290 = PERSON_AND_ORGANIZATION_ROLE ( 'design_supplier' ) ;
#291 = PERSON_AND_ORGANIZATION ( #261, #260 ) ;
#292 = CC_DESIGN_PERSON_AND_ORGANIZATION_ASSIGNMENT ( #294, #293, ( #306 ) ) ;
#293 = PERSON_AND_ORGANIZATION_ROLE ( 'creator' ) ;
#294 = PERSON_AND_ORGANIZATION ( #261, #260 ) ;
#295 = CC_DESIGN_APPROVAL ( #303, ( #306 ) ) ;
#296 = APPROVAL_DATE_TIME ( #297, #303 ) ;
#297 = DATE_AND_TIME ( #298, #299 ) ;
#298 = CALENDAR_DATE ( 2007, 22, 10 ) ;
#299 = LOCAL_TIME ( 13, 35, 14.00000000000000000, #300 ) ;
#300 = COORDINATED_UNIVERSAL_TIME_OFFSET ( 5, 0, .BEHIND. ) ;
#301 = APPROVAL_PERSON_ORGANIZATION ( #305, #303, #302 ) ;
#302 = APPROVAL_ROLE ( '' ) ;
#303 = APPROVAL ( #304, 'UNSPECIFIED' ) ;
#304 = APPROVAL_STATUS ( 'not_yet_approved' ) ;
#305 = PERSON_AND_ORGANIZATION ( #261, #260 ) ;
#306 = PRODUCT_DEFINITION_FORMATION_WITH_SPECIFIED_SOURCE ( 'ANY', '', #262, .NOT_KNOWN. ) ;
#307 = CC_DESIGN_DATE_AND_TIME_ASSIGNMENT ( #309, #308, ( #253 ) ) ;
#308 = DATE_TIME_ROLE ( 'creation_date' ) ;
#309 = DATE_AND_TIME ( #236, #237 ) ;
#310 = SHAPE_DEFINITION_REPRESENTATION ( #311, #234 ) ;
#311 = PRODUCT_DEFINITION_SHAPE ( 'NONE', 'NONE',  #253 ) ;
ENDSEC;
END-ISO-10303-21;
